She will be loved/Pictures of you solo

(/) Slide Up  (\) Slide Down  (h) Hammer On  (p) Pull Off  (b) Bend (r) Release (v) Vibrato


E|--------------------------------------------5-----5-----------------------5--5v--
B|------------------------------------3--5/7-----7-----7/5--3h5p3--3v--5/7---------
G|----------2--2v-----2--4--4v--2--4-----------------------------------------------
D|--0--2/4---------4---------------------------------------------------------------
A|---------------------------------------------------------------------------------
E|---------------------------------------------------------------------------------



E|-------------------------10--12b14--12b14--14r12--12--12v--
B|--7--10/12--12v--10--12------------------------------------
G|-----------------------------------------------------------
D|-----------------------------------------------------------
A|-----------------------------------------------------------
E|-----------------------------------------------------------
http://www.guitartabcreator.com
Guitar Tab Creator is intended to store guitar tab created through the tool. It currently does not support in-line text editing. Any text you place in here will be lost. If you need to comment on your tab, please use the "Tab Notes" section located below.