Depressing.

(/) Slide Up  (\) Slide Down  (h) Hammer On  (p) Pull Off  (b) Bend (r) Release (v) Vibrato


E|--------3--------3--------------3--------3--------------3--------3--------
B|-----1--------1--------1-----1--------1--------1-----3--------3--------3--
G|--------------------------------------------------------------------------
D|--------------------------------------------------------------------------
A|--3--------3--------3-----0--------0--------0-----------------------------
E|--------------------------------------------------3--------3--------3-----



E|--------------------------
B|--------1-----------3-----
G|-----------2-----------0--
D|-----2-----------0--------
A|--0-----------------------
E|--------------3-----------
http://www.guitartabcreator.com
Guitar Tab Creator is intended to store guitar tab created through the tool. It currently does not support in-line text editing. Any text you place in here will be lost. If you need to comment on your tab, please use the "Tab Notes" section located below.