welcome-_Home

(/) Slide Up  (\) Slide Down  (h) Hammer On  (p) Pull Off  (b) Bend (r) Release (v) Vibrato

E|--------------------------------------------------------------------------------
B|--------------------------------------------------------------------------------
G|--------------------------------------------------------------------------------
D|--------------------------------------------------------------------------------
A|--------------------------------------------------------------------------------
E|--2--2--2--2--2--2--4--4--4--4--4--4--1--1--1--1--1--1--6--6--6--6--6--4--1-----



E|--------------------------------------------------------------------------
B|--------------------------------------------------------------------------
G|--------------------------------------------------------------------------
D|--------------------------------------------------------------------------
A|--------------------------------------------------------------------------
E|--2--2--2--2--2--2--4--4--4--4--4--4--1--1--1--1--1--1--6--6--4--2--1--2--



E|--------------------------------------------------------------------------------------------------
B|--------------------------------------------------------------------------------------------------
G|--------------------------------------------------------------------------------------------------
D|--------------------------------------------------8--8--8--8--6--6--6--6--4--4--4--4--4--4--4--4--
A|--4--4--4--4--4--4--4--4--9--9--9--9--9--9--9--9--------------------------------------------------
E|--------------------------------------------------------------------------------------------------



E|--------------------------------------------------------------------------------------------------
B|--------------------------------------------------------------------------------------------------
G|--------------------------------------------------------------------------------------------------
D|--------------------------------------------------------------------------------------------------
A|--4--4--4--4--4--4--4--4--9--9--9--9--9--9--9--9--------------------------------------------------
E|--------------------------------------------------6--6--6--6--4--4--4--4--2--2--2--2--4--4--4--4--



E|--------------------------------------------------------------------------------------------
B|--------------------------------------------------------------------------------------------
G|--------------------------------------------------------------------------------------------
D|--------------------------------------------------------------------------------------------
A|--8--8----8--8----------------------------------------------------0--0----0-----0--1--1--1--
E|----------------6--6--6--6--6--6--6--6--2--2--2--2--4--4--4--4---------------1--------------



E|---------------------------------------------------------------------------
B|---------------------------------------------------------------------------
G|-----------------------------------5h6p5-----------------------------------
D|--8--8--8-----------------------6---------6--------------------------------
A|-----------8--6--6--6--6--6--6---------------6--8--8--8--8--8--8--8--8--8--
E|---------------------------------------------------------------------------



E|-----------------------------------------------------------------------------
B|-----------------------------------------------------------------------------
G|-----------------------------------------------------------------------------
D|-----------------------------------------------------------------------------
A|-----------------------------------------------------------------------------
E|--2--2--2--2--2--2--4--4--4--4--4--4--1--1--1--1--1--1--6--6--6--6--6--4--1--



E|--------------------------------------------------------------------------
B|--------------------------------------------------------------------------
G|--------------------------------------------------------------------------
D|--------------------------------------8--8--8--7--7--7--6--6-----3--6-----
A|--6--6--6--6--6--6--8--8--8--8--8--8--------------------------4--------4--
E|--------------------------------------------------------------------------



E|-----------------------------------------------------------------------------------------------
B|-----------------------------------------------------------------------------------------------
G|-----------------------------------------------------------------------------------------------
D|--4--4--4--4--4--4--6--6--6--6--6--6--3--3--3--7--7--7--8--8--8--8--8--8-----------------------
A|--------------------------------------------------------------------------8--6--6--6--6--6--6--
E|-----------------------------------------------------------------------------------------------



E|----------------------------------------------------------------------
B|----------------------------------------------------------------------
G|----------------------------------------------------------------------
D|----------------------------------------------------------------------
A|--8--8--8--8--8-----8--9--9--9--9--9-----9--11--11--11--11--11--9--8--
E|-----------------8--------------------9-------------------------------



E|--------
B|--------
G|--------
D|--------
A|--------
E|--------
http://www.guitartabcreator.com
Guitar Tab Creator is intended to store guitar tab created through the tool. It currently does not support in-line text editing. Any text you place in here will be lost. If you need to comment on your tab, please use the "Tab Notes" section located below.