the song

(/) Slide Up  (\) Slide Down  (h) Hammer On  (p) Pull Off  (b) Bend (r) Release (v) Vibrato

E|-----------------
B|-----------------
G|--4--------7--6--
D|--4--5--7--7--7--
A|--2--5--7--5--4--
E|-----3--5--------



E|------------------------------------------------------------------------------------
B|--7--10--7-----------7--------------------------7-----------7-----------7-----------
G|------------9--9--9-----9--7-----------7--9--9-----9--7--9-----9--7--9-----9--7--7--
D|------------------------------9--7--9-----------------------------------------------
A|------------------------------------------------------------------------------------
E|------------------------------------------------------------------------------------



E|----------------
B|----------------
G|--7--14--9--11--
D|----------------
A|--5--12--7--9---
E|----------------



E|--------
B|--------
G|--------
D|--5--7--
A|--5--7--
E|--3--5--



E|--------------------------------------------
B|--------------------------------------------
G|--------------------7-----------3--4--------
D|--5--7--4--9--5--7--7--5--7--4--3--4--5--7--
A|--5--7--4--9--5--7--5--5--7--4--1--2--5--7--
E|--3--5--2--7--3--5-----3--5--2--------3--5--



E|--------
B|--------
G|--7--9--
D|--------
A|--5--7--
E|--------



E|--------------------------------------------------------------------
B|--------------------------------------------------------------------
G|--7--9--11--11--12--11--7--7--9--11--7--9--11--11--12--11--7--7--9--
D|--------------------------------------------------------------------
A|--5--7--9---9---10--9---5--5--7--9---5--7--9---9---10--9---5--5--7--
E|--------------------------------------------------------------------



E|--------------------------------------------------------------
B|--7--7--------------------------------------------------------
G|--------7--9--7--9--11--11----11--9--7--11--9----7--6--11--7--
D|--------------------------------------------------------------
A|--------------------------------------------------------------
E|--------------------------------------------------------------



E|----------------------------------------------------------------------------------------------------------------
B|-----------------7--7--7--7-----------------7----------------------------7--7--7--7--------------8--7-----------
G|--7--7--7--7--9--------------7--7--7--7--9-----9--7--7----7--7--7--7--9--------------7--7--7--7--------9--7--7--
D|----------------------------------------------------------------------------------------------------------------
A|----------------------------------------------------------------------------------------------------------------
E|----------------------------------------------------------------------------------------------------------------



E|--
B|--
G|--
D|--
A|--
E|--
http://www.guitartabcreator.com
Guitar Tab Creator is intended to store guitar tab created through the tool. It currently does not support in-line text editing. Any text you place in here will be lost. If you need to comment on your tab, please use the "Tab Notes" section located below.