Journey - Angela Zhang Dolphine Bay OST

(/) Slide Up  (\) Slide Down  (h) Hammer On  (p) Pull Off  (b) Bend (r) Release (v) Vibrato

Intro/ verse
E |------------6--------------------------
B |------------6--------------------------
G |--7----5-------------------------------
D |--8----7-------------------------------
A |--8----8----3--------------------------
E |--6----5----5--------------------------

Prechorus
E |--8---8------6---6-------------------------8---
B |--8---8------6---6-------------------------8---
G |--10--10-----8---8-------------------------10--
D |--10--10-----8---8-------------------------10--
A |--8---8------6---6-------------------------8---
E |-----------------------------------------------
When shadows fall/ I know I will falter...by my side
- play these a few times^ ^end on this

chorus
E |------------6---------------------------
B |------------6---------------------------
G |--7----5---------8----10---7------------
D |--8----7---------8----10---8------------
A |--8----8----3----6----8----8------------
E |--6----5----5--------------6------------

Bridge
E |------------5-------------------------------------------------------
B |------------6-------------------------------------------------------
G |-------5----5---------9----7---------5----10---7---------5----7----8
D |--5----5----7----5----9----7----8----5----10---7----8----5----7----8
A |--5----3----8----5----7----5----8----3----8----5----8----3----5----6
E |--3---------5----3--------------6-------------------6---------------
sometimes it feels like... soul pull me through


ending
E |------------6-----------------------------------------
B |------------6-----------------------------------------
G |--7----5---------8----10-------------8----------------
D |--8----7---------8----10----8--------8-----8----------
A |--8----8----3----6----8-----8--------6-----8---------
E |--6----5----5---------------6--------------6----------
home to you... to you...

the last bit is the same thing as the verse/ intro but it ends on:
E |--6
B |--6
G |--7
D |--8
A |--8
E |--6

http://www.guitartabcreator.com
Guitar Tab Creator is intended to store guitar tab created through the tool. It currently does not support in-line text editing. Any text you place in here will be lost. If you need to comment on your tab, please use the "Tab Notes" section located below.