Give Me Five! solo

(/) Slide Up  (\) Slide Down  (h) Hammer On  (p) Pull Off  (b) Bend (r) Release (v) Vibrato

Stave 1:

E|-------------------------------------------------------------------------------------
B|-------------------------------------------------------------------------------------
G|--16--14--13--14--13--9--16--14--13--14--13--9--11--13--9--11--13--9--8--9--8--6--4--
D|-------------------------------------------------------------------------------------
A|--14--12--11--12--11--7--14--12--11--12--11--7--9---11--7--9---11--7--6--7--6--4--2--
E|-------------------------------------------------------------------------------------

Stave 2:

E|---------------------------------------------------------------9--9--9--12--9--11--12--
B|------------------------------------------9--9--10--9--10--12--------------------------
G|--9\6------9--8--9--11--8-----11--10--11-----------------------------------------------
D|-------11------------------9-----------------------------------------------------------
A|---------------------------------------------------------------------------------------
E|---------------------------------------------------------------------------------------

Stave 3:

E|--14--21--19--
B|--------------
G|--------------
D|--------------
A|--------------
E|--------------

http://www.guitartabcreator.com
Guitar Tab Creator is intended to store guitar tab created through the tool. It currently does not support in-line text editing. Any text you place in here will be lost. If you need to comment on your tab, please use the "Tab Notes" section located below.