Danger Line

(/) Slide Up  (\) Slide Down  (h) Hammer On  (p) Pull Off  (b) Bend (r) Release (v) Vibrato

E|----------------------------------------------------------------------------------------------
B|--0--10--10v--8--6--6------6--8/10--11--8--10v--6v--------------------------------------------
G|-----------------------7v---------------------------3--5/7--7--5------------------------------
D|------------------------------------------------------------------0/3--5--7--8/10\8--7--5-----
A|----------------------------------------------------------------------------------------------
E|----------------------------------------------------------------------------------------------



E|----------------------------------------------------------------------------------------------------
B|----------------------------------------------------------------------------------------------------
G|----------------------------------------5--7v--7--7--7--5-------------------------------------------
D|--5--5--5--5--7--8--7--5--3v--/3--5--7---------------------7v--7--10--11v--11--11v--12--12--14v-----
A|----------------------------------------------------------------------------------------------------
E|----------------------------------------------------------------------------------------------------



E|---------------------------------------------------------------------
B|---------------------------------------------------------------------
G|--10--9--7--7--7\5--5--5--5--0--2v--2--0--0--0--2--3--3--3/5\3v--2v--
D|---------------------------------------------------------------------
A|---------------------------------------------------------------------
E|---------------------------------------------------------------------



E|------------------------------------------------------------
B|------------------------------------------------------------
G|--0--10--9--7--7--7\5--5--5--5--0--2v--/6v--6--6--7--7--9v--
D|------------------------------------------------------------
A|------------------------------------------------------------
E|------------------------------------------------------------



E|-----------------------------------------------------------------------
B|-----------------------------------------------------------------------
G|--0/10--9--7--7--7\5--5--5--5--0--2v--2--0--0--0--2--3--3--3/5\3v--2v--
D|-----------------------------------------------------------------------
A|-----------------------------------------------------------------------
E|-----------------------------------------------------------------------



E|-----------------------------------------------------------
B|-----------------------------------------------------------
G|--0/10--9--7--7--7\5--5--5--5--0--2v--/6v--6--6--7--7--9v--
D|-----------------------------------------------------------
A|-----------------------------------------------------------
E|-----------------------------------------------------------



E|-------------------------------------------------------------------------------------------
B|-------------------------------------------------------------------------------------------
G|--7--7--7--7--7\5\3--2--2v-----2v--3--2--3v--2--2v--2--2/5--7v--7\5v--\3/5\3v--0--2v--/6v--
D|----------------------------3--------------------------------------------------------------
A|-------------------------------------------------------------------------------------------
E|-------------------------------------------------------------------------------------------
http://www.guitartabcreator.com
Guitar Tab Creator is intended to store guitar tab created through the tool. It currently does not support in-line text editing. Any text you place in here will be lost. If you need to comment on your tab, please use the "Tab Notes" section located below.