Dark 1

(/) Slide Up  (\) Slide Down  (h) Hammer On  (p) Pull Off  (b) Bend (r) Release (v) Vibrato

E|-----------------------------------7h
B|--------8--------8--------7--------7-
G|-----7--------7--------7--------7--7-
D|--0--------0--------0--------0-----0-
A|-------------------------------------
E|-------------------------------------



E|-----------------------------------4h
B|--------4--------4--------3--------3-
G|-----5--------5--------4--------4--4-
D|--0--------0--------0--------0-----0-
A|-------------------------------------
E|-------------------------------------
http://www.guitartabcreator.com
Guitar Tab Creator is intended to store guitar tab created through the tool. It currently does not support in-line text editing. Any text you place in here will be lost. If you need to comment on your tab, please use the "Tab Notes" section located below.