STEAKNIFE

(/) Slide Up  (\) Slide Down  (h) Hammer On  (p) Pull Off  (b) Bend (r) Release (v) Vibrato
E|--7--7--x--x--x------------
B|--7--8--7--7--7------------
G|--x--x--7--9--7----------9b
D|--x--x--x--x--x------------
A|--x--x--x--x--x------------
E|--x--x--x--x--x------------



E|--x--x--x--x--x--x--x--x--
B|--x--x--x--x--x--x--x--x--
G|--x--x--x--x--x--x--x--x--
D|--x--x--x--1--4--x--7--9--
A|--9--5--7--1--2--5--5--7--
E|--7--3--5--0--x--3--x--x--



E|--x--x--x--x--x--------------------------------------
B|--x--x--x--x--x--------------------------------------
G|--x--x--x--x--x--------------------------------------
D|--1--5--4--7--x--------5--4--5--4--5--4--5-----------
A|--1--3--2--5--5--------3--2--3--2--3--2--3--5--------
E|--0--x--x--x--3-----------------------------3--------
http://www.guitartabcreator.com
Guitar Tab Creator is intended to store guitar tab created through the tool. It currently does not support in-line text editing. Any text you place in here will be lost. If you need to comment on your tab, please use the "Tab Notes" section located below.