Buttplug

(/) Slide Up  (\) Slide Down  (h) Hammer On  (p) Pull Off  (b) Bend (r) Release (v) Vibrato


E|-------------------
B|-------------------
G|-------------------
D|--2----------------
A|--2----9----5----7/
E|--0----7----3----5-



E|-----------------------------------
B|-----------------------------------
G|-----------------------------------
D|--2--------2--------2--------------
A|--2--9--5--2--9--5--2--9--5--7--3--
E|--0--7--3--0--7--3--0--7--3--5--1--



E|---------------------------
B|---------------------------
G|---------------------------
D|--2-----2-----2------------
A|--2--3--2--3--2--3--9--10--
E|--0--1--0--1--0--1--7--8---
http://www.guitartabcreator.com
Guitar Tab Creator is intended to store guitar tab created through the tool. It currently does not support in-line text editing. Any text you place in here will be lost. If you need to comment on your tab, please use the "Tab Notes" section located below.