1 COR 13

(/) Slide Up  (\) Slide Down  (h) Hammer On  (p) Pull Off  (b) Bend (r) Release (v) Vibrato
E|--x--x--x--x--x--x--x--x--x--x--3--2--8--5--2--x--x--2--x--x--x-----
B|--0--0--0--0--4--1--0--0--0--0--3--2--7--4--1--0--1--2--1--3--1--3--
G|--0--2--2--2--2--2--0--2--2--2--3--2--8--5--2--0--1--2--1--2--2-----
D|--0--3--4--1--1--1--0--3--4--1--5--2--7--4--1--0--1--2--1--1--1-----
A|--2--2--2--2--2--2--2--2--2--2--5--4--x--x--x--2--0--4--0--2--2-----
E|--x--x--x--x--x--x--x--x--x--x--x--x--x--x--x--x--x--x--x--x--x-----



E|--x--x--x--x--x--x--x--x--x--x--x--x--x--x--x--x--
B|--2--2--0--2--4--4--3--3--3--1--3--4--4--3--2--1--
G|--2--2--1--1--3--5--2--3--3--2--2--3--5--2--2--1--
D|--2--2--2--2--5--5--4--3--3--3--4--5--5--4--2--1--
A|--0--4--2--x--6--3--5--1--5--3--x--6--3--5--4--3--
E|--x--x--x--x--x--x--x--x--x--x--x--x--x--x--x--x--
http://www.guitartabcreator.com
Guitar Tab Creator is intended to store guitar tab created through the tool. It currently does not support in-line text editing. Any text you place in here will be lost. If you need to comment on your tab, please use the "Tab Notes" section located below.