Blind Alley [composed by YASUpochi]

(/) Slide Up  (\) Slide Down  (h) Hammer On  (p) Pull Off  (b) Bend (r) Release (v) Vibrato
E|-----0--3--3--2-----2--0-----0-----------0--3--3--2-----2--0-----0--------
B|--0-----0--0-----3--3-----1-----3-----0-----0--0-----3--3-----1-----3-----
G|--0--------------0--0-----0--2-----2--0-----------------0-----0--2-----2--
D|--4-----2--0-----------------------2--4-----2--0-----------------------2--
A|-----------------2--3-----0--2-----------------------2--3-----0--2--------
E|-----------------------------------2--0--------------------------------2--



E|-----0--7--7--5--0--3--2-----5--3--2--3--0-----0-----------0--3--3--2-----
B|--0--------5--------1-----3--3-----2--1-----1-----3-----0-----0--0-----3--
G|--0--------5--------2--------0-----0--0--------2--2--2--0--------------0--
D|--4-----------------0-----------------------2-----2-----4-----2--0--------
A|-----------0-----------------2-----1--0--------------------------------2--
E|--0-----------------------------------------3--2--1-----0-----------------



E|--2--0-----0-----------0--3--3--2-----2--0-----0-----------0--7--7--5--12--
B|--3-----1-----3-----0-----0--0-----3--3-----1-----3-----0--------5---------
G|--0-----0--2-----2--0-----------------0-----0--2-----2--0--------5---------
D|-----------------2--4-----2--0-----0-----------------2--4------------------
A|--3-----0--2-----------------------2--3-----0--2-----------------0---------
E|-----------------2--0--------------------------------2--0------------------



E|--12--10--5--5--7--3--2--0-----0-----0--0--2--3--2-----2--0--3--2-----
B|--10---------0-----3--3--1--3--0--3-----1--3--0--0--3--3--0--0-----3--
G|--10---------------0--0--0-----0--2-----2--4-----------0--0--------0--
D|--0----------4-----------0-----2--4-----------2--0-----0-----2--------
A|-------------------2--3-----------------------------2-----3--------2--
E|-------------3--------------------------------------------------------



E|--12--10--5--5--7--3--3--2--2--2--0--3--2--0-----0-----0--0--2--3--2-----
B|--10---------0-----3--3--3-----1--1-----3--1--3--1--3--0--1-----0-----3--
G|--10---------------0--0--0-----0--0-----0--0-----0--2--0--2-----------0--
D|--0----------4-----------------------------0-----2--4-----------2--------
A|-------------------2--3--2-----0--2-----3-----------------------------2--
E|-------------3-----------------------------------------------------------
http://www.guitartabcreator.com
Guitar Tab Creator is intended to store guitar tab created through the tool. It currently does not support in-line text editing. Any text you place in here will be lost. If you need to comment on your tab, please use the "Tab Notes" section located below.