Up Theme Song - Married Life by Michael Glacchino

(/) Slide Up  (\) Slide Down  (h) Hammer On  (p) Pull Off  (b) Bend (r) Release (v) Vibrato
E|-----4-------------------4---------------0-------------------4--2---------4--2--0-----
B|--5-----5--4----------5-----4--2------2-----2--0----------0------------2-----------2--
G|--------------------------------------------------------------------------------------
D|--------------------------------------------------------------------------------------
A|--------------------------------------------------------------------------------------
E|--------------------------------------------------------------------------------------



E|--0--2--0----------------2------------------------------------------------------------
B|-----------4----------4-----4--0------0--4--0-------------------0--2--4------0--2--4--
G|-----------------------------------------------2----------1--2------------------------
D|--------------------------------------------------------------------------------------
A|--------------------------------------------------------------------------------------
E|--------------------------------------------------------------------------------------



E|-----4-------------------4---------------0-----11------9--12--11--9---------9--12------
B|--5-----5--4----------5-----4--2------2-----9------------------------9--11-------------
G|---------------------------------------------------------------------------------------
D|---------------------------------------------------------------------------------------
A|---------------------------------------------------------------------------------------
E|---------------------------------------------------------------------------------------



E|-12-14-12-11---------11-14-11-----------11-------
B|------------------------------12-----12----12-10-
G|-------------------------------------------------
D|-------------------------------------------------
A|-------------------------------------------------
E|-------------------------------------------------
http://www.guitartabcreator.com
Guitar Tab Creator is intended to store guitar tab created through the tool. It currently does not support in-line text editing. Any text you place in here will be lost. If you need to comment on your tab, please use the "Tab Notes" section located below.