Butterfly

(/) Slide Up  (\) Slide Down  (h) Hammer On  (p) Pull Off  (b) Bend (r) Release (v) Vibrato

E|--------------------------------------------------------------
B|--------------------------------------------------------------
G|--14----------11----14----------11--------14----------11------
D|------12--14------------12--14------12--------12--14------14--
A|--------------------------------------------------------------
E|--------------------------------------------------------------



E|------------------------------------------------------------
B|------------------------------------------------------------
G|--14----------11--14----------11--------14----------11------
D|------12--14----------12--14------12--------12--14------14--
A|------------------------------------------------------------
E|------------------------------------------------------------



E|--------------------------------------------------------------------------------
B|----------------------------10-------------10-----------------------------------
G|--11--------------11------------12--11--9------12--11--9------11--------11------
D|------12------12------12----------------------------------12------12--------12--
A|--------------------------------------------------------------------------------
E|--------------------------------------------------------------------------------



E|-----------------------------------------------------------------------------------------------
B|--10-------------10------------------------------------------------------------------------10--
G|------12--11--9------12--11--9------9--------------------9--------------------9--------11------
D|--------------------------------12-------11--11--11--12-------11--11--11--12-------12----------
A|-----------------------------------------------------------------------------------------------
E|-----------------------------------------------------------------------------------------------



E|------------------------------9--10-------------------------------------------------------------
B|----------10--10----------10-------------------10--10--------------------10---------------------
G|--11--12----------11--12---------------11--12----------12--11--9------9------12--11--9----------
D|------------------------------------------------------------------12--------------------12--12--
A|------------------------------------------------------------------------------------------------
E|------------------------------------------------------------------------------------------------



E|----------------------9--10------------------------------------------------------------
B|--10--10----------10-----------------10--10--------------------------------10--10------
G|----------11--12-------------11--12----------12--11--9------9------11--12--------------
D|--------------------------------------------------------12-----12------------------12--
A|---------------------------------------------------------------------------------------
E|---------------------------------------------------------------------------------------



E|------------------------------------------------------
B|------------------------------------------------------
G|--14----------11----------11------14----------11------
D|------12--14------12--14------12------12--14------14--
A|------------------------------------------------------
E|------------------------------------------------------



E|--------------------------------------------------------------------------
B|------------------------10-------------10---------------------------------
G|--11------------11----------12--11--9------12--11--9------11------11------
D|------12----12------12--------------------------------12------12------12--
A|--------------------------------------------------------------------------
E|--------------------------------------------------------------------------



E|-------------------------------------------------------------------------------------------
B|--10-------------10--------------------------------------------------------------------10--
G|------12--11--9------12--11--9------9--------------------9------------------9------11------
D|--------------------------------12-------11--11--11--12-----11--11--11--12-----12----------
A|-------------------------------------------------------------------------------------------
E|-------------------------------------------------------------------------------------------



E|------------------------------9--10-----------------------------------------------------------
B|----------10--10----------10-----------------10--10--------------------10---------------------
G|--11--12----------11--12-------------11--12----------12--11--9------9------12--11--9----------
D|----------------------------------------------------------------12--------------------12--12--
A|----------------------------------------------------------------------------------------------
E|----------------------------------------------------------------------------------------------



E|----------------------9--10--------------------------------------------------------------------
B|--10--10----------10-----------------10--10--------------------------------10--10--------------
G|----------11--12-------------11--12----------12--11--9------9------11--12----------12--11------
D|--------------------------------------------------------12-----12--------------------------12--
A|-----------------------------------------------------------------------------------------------
E|-----------------------------------------------------------------------------------------------



E|------------------------------------------------------------------------------------------
B|------------------------------------------------------------------------------------------
G|------------------------------------------------------------------------------------------
D|--11--11--11--11----11--12--14--12--11--11----11--11--11--11----11--12--14--12--11--12----
A|------------------------------------------------------------------------------------------
E|------------------------------------------------------------------------------------------



E|--
B|--
G|--
D|--
A|--
E|--
http://www.guitartabcreator.com
Guitar Tab Creator is intended to store guitar tab created through the tool. It currently does not support in-line text editing. Any text you place in here will be lost. If you need to comment on your tab, please use the "Tab Notes" section located below.