Echoes melody

(/) Slide Up  (\) Slide Down  (h) Hammer On  (p) Pull Off  (b) Bend (r) Release (v) Vibrato
E|-----|------|-----|--------|-------|-14--19-|---
B|-----|-8--7-|-----|--------|-17-15-|--------|---
G|-4-7-|------|-9-2-|-14--16-|-------|--------|---
D|-----|------|-----|--------|-------|--------|---
A|-----|------|-----|--------|-------|--------|---
E|-----|------|-----|--------|-------|--------|---



E|-20-19-|----------|-----|------|-----|-------
B|-------|----12----|-----|------|-----|-8--12-
G|-------|-12----11-|-----|----5-|-7-9-|-------
D|-------|----------|-7-5-|-4----|-----|-------
A|-------|----------|-----|------|-----|-------
E|-------|----------|-----|------|-----|-------



E|--------|----------|-----------|-----------|--------------|-------
B|--------|----------|-----------|-----------|--------------|-------
G|--------|----------|--7--5--4--|-----------|--------------|-------
D|--5--9--|--9----7--|-----------|--7----14--|--17--21--19--|--17v--
A|--------|----------|-----------|-----------|--------------|-------
E|--------|----------|-----------|-----------|--------------|-------
http://www.guitartabcreator.com
Guitar Tab Creator is intended to store guitar tab created through the tool. It currently does not support in-line text editing. Any text you place in here will be lost. If you need to comment on your tab, please use the "Tab Notes" section located below.