Echoes

(/) Slide Up  (\) Slide Down  (h) Hammer On  (p) Pull Off  (b) Bend (r) Release (v) Vibrato


E|---------------------------------|---------------------------------|---------------------
B|-----3-----3---0-----0-----3---3-|-----5-----5---5-----7-----7---0-|-----0-----0---0h3---
G|---------------------------------|---------------------------------|---------------------
D|---2-----2---------2-----2-------|---4-----4---------4-----4-------|---2-----2-----------
A|-3-----3-----3---3-----3-----3---|-5-----5-----5---5-----5-----5---|-3-----3-----3-------
E|---------------------------------|---------------------------------|---------------------



E|-----------------|---------------------------------|-----------------------------------
B|-----------------|---------------------------------|-----------------------------------
G|-----2-----2---2-|-----4-----4---4-----0-----0---0-|-----0-----0---2-----2-----0h2---2-
D|---2-----2-------|---4-----4---------4-----4-------|---2-----2---------2-----2---------
A|-3-----3-----3---|-5-----5-----5---5-----5-----5---|-3-----3-----3---3-----3-------3---
E|-----------------|---------------------------------|-----------------------------------



E|---------------------------------|---------------------------------|-----------------------
B|---------------------------------|---------------------7-----7---0-|-----------------------
G|-----4-----4---5-----5-----5---4-|-----7-----7---7-----------------|-----2-----2---0-----0-
D|---4-----4---------4-----4-------|---5-----5---------5-----5-------|---2-----2---------2---
A|-5-----5-----5---5-----5-----5---|-7-----7-----7---7-----7-----7---|-3-----3-----3---3-----
E|---------------------------------|---------------------------------|-----------------------



E|-----------|---------------------------------|---------------7-----7-----7---0---
B|-----------|---------------------------------|-----7-----7-----------------------
G|-----0---2-|-----4-----5---7-----7-----5---4-|-----------------------------------
D|---2-------|---4-----4---------4-----4-------|---5-----5---------5-----5---------
A|-3-----3---|-5-----5-----5---5-----5-----5---|-7-----7-----7---7-----7-----7-----
E|-----------|---------------------------------|-----------------------------------



E|-----3-----3---3-----2-----2---0-|---------------------------------|-------------------------
B|---------------------------------|---------------------------------|-------------------------
G|---------------------------------|---------------------------------|-----0-----2---4-----4---
D|---2-----2---------2-----2-------|-----0-----0---2-----2-----2---0-|---2-----2---------2-----
A|-3-----3-----3---3-----3-----3---|---2-----2---------2-----2-------|-3-----3-----3---3-------
E|---------------------------------|-3-----3-----3---3-----3-----3---|-------------------------



E|-----------|---------------------------------|---------------------------------|-
B|-----------|---------------------------------|---------------1-----1-----0-----|-
G|-----2---0-|---------------------------------|-----0-----0-------------------0-|-
D|---2-------|-----0-----0---4-----4-----2---0-|---2-----2---------2-----2-------|-
A|-3-----3---|---2-----2---------2-----2-------|-3-----3-----3---3-----3-----3---|-
E|-----------|-3-----3-----3---3-----3-----3---|---------------------------------|-



E|---------------------------------|----------
B|---------------------------------|----------
G|-----4-----4---5-----4-----5---4-|-4v-7v-5v-
D|---4-----4---------4-----4-------|----------
A|-5-----5-----5---5-----5-----5---|----------
E|---------------------------------|----------
http://www.guitartabcreator.com
Guitar Tab Creator is intended to store guitar tab created through the tool. It currently does not support in-line text editing. Any text you place in here will be lost. If you need to comment on your tab, please use the "Tab Notes" section located below.