Compo

(/) Slide Up  (\) Slide Down  (h) Hammer On  (p) Pull Off  (b) Bend (r) Release (v) Vibrato

E|--------------7-----------------------7-----------------------0-----------------------0-----
B|--------7--------------7--------7--------------7--------3--------------3--------3-----------
G|-----7--------------7--------7--------------7--------4--------------4--------4--------------
D|--9--------9-----9--------9--------9-----9--------5--------5-----5--------5--------5--------
A|--------------------------------------------------------------------------------------------
E|--------------------------------------------------------------------------------------------



E|--------------2-----------------------2-----------------------0-----------------------2-----------
B|--------2--------------2--------2--------------2--------0--------------0--------2--------------2--
G|-----2--------------2--------2--------------2--------0--------------0--------2--------------2-----
D|--4--------4-----4--------4--------4-----4--------2--------2-----2--------4--------4-----4--------
A|--------------------------------------------------------------------------------------------------
E|--------------------------------------------------------------------------------------------------



E|--------------7-----------------------7-----------------------0-----------------------0-----------
B|--------7--------------7--------7--------------7--------5--------------5--------5--------------5--
G|-----7--------------7--------7--------------7--------6--------------6--------6--------------6-----
D|--9--------9-----9--------9--------9-----9--------7--------7-----7--------7--------7-----7--------
A|--------------------------------------------------------------------------------------------------
E|--------------------------------------------------------------------------------------------------



E|--------------0-----------------------0-----------------------0-----------------------0-----
B|--------0--------------0--------0--------------0--------3--------------3--------3-----------
G|-----0--------------0--------0--------------0--------4--------------4--------4--------------
D|--2--------2-----2--------2--------2-----2--------5--------5-----5--------5--------5--------
A|--------------------------------------------------------------------------------------------
E|--------------------------------------------------------------------------------------------



E|------------------------------------------------------------------------------7-----------
B|----------10------14----------14----------10------12----------12--------7--------------7--
G|------11------------------11----------11------------------11---------7--------------7-----
D|--12----------12------12----------12----------12------12----------9--------9-----9--------
A|------------------------------------------------------------------------------------------
E|------------------------------------------------------------------------------------------



E|--------------0-----------------------0-------------------------------------------
B|--------3--------------3--------5--------------5----------10----------10------10--
G|-----4--------------4--------6--------------6---------11----------11--------------
D|--5--------5-----5--------7--------7-----7--------12----------12----------12------
A|----------------------------------------------------------------------------------
E|----------------------------------------------------------------------------------
http://www.guitartabcreator.com
Guitar Tab Creator is intended to store guitar tab created through the tool. It currently does not support in-line text editing. Any text you place in here will be lost. If you need to comment on your tab, please use the "Tab Notes" section located below.