lunar Mission

(/) Slide Up  (\) Slide Down  (h) Hammer On  (p) Pull Off  (b) Bend (r) Release (v) Vibrato
E|-------------------------------------------------------------------------------------------------
B|-------------------------------------------------------------------------------------------------
G|--9-----9-----8--9-----9-----9--------10--9-----9-----8--9-----9-----9--------9--------10--------
D|--7-----7-----7--7-----7-----7--------7---7-----7-----7--7-----7-----7--------7--------7---2-----
A|-----0-----0--------0-----0-----0--0---------0-----0--------0-----0-----0--0-----0--0------0-----
E|-------------------------------------------------------------------------------------------------



E|--------------------------------------------------
B|--------------------------------------0-----------
G|-----------------------------------2--------------
D|-----2-----1--2-----2-----2-----3--------2-----2--
A|--0--0--0--0--0--0--0--0--0--0-----------0--0--0--
E|--------------------------------------------------
http://www.guitartabcreator.com
Guitar Tab Creator is intended to store guitar tab created through the tool. It currently does not support in-line text editing. Any text you place in here will be lost. If you need to comment on your tab, please use the "Tab Notes" section located below.