main riff

(/) Slide Up  (\) Slide Down  (h) Hammer On  (p) Pull Off  (b) Bend (r) Release (v) Vibrato


E|-------------------------------------------
B|--3--x--3--3--3--x--3--3--3--5--5--9---10--
G|--5--x--5--5--5--x--5--5--5--7--7--11--11--
D|--5--x--5--5--5--x--5--5--5--7--7--11--11--
A|-------------------------------------------
E|-------------------------------------------



E|--------------------------------------
B|--3--x--3--3--3--x--3--3--3--5--5--7--
G|--5--x--5--5--5--x--5--5--5--7--7--9--
D|--5--x--5--5--5--x--5--5--5--7--7--9--
A|--------------------------------------
E|--------------------------------------
http://www.guitartabcreator.com
Guitar Tab Creator is intended to store guitar tab created through the tool. It currently does not support in-line text editing. Any text you place in here will be lost. If you need to comment on your tab, please use the "Tab Notes" section located below.