Mysteries

(/) Slide Up  (\) Slide Down  (h) Hammer On  (p) Pull Off  (b) Bend (r) Release (v) Vibrato
E|--11--9--11--9--11--9-----11--9-----11--9--11--9--11--9------11--9-----11--9-----
B|-----------------------9---------7-----------------------11---------9---------7--
G|---------------------------------------------------------------------------------
D|---------------------------------------------------------------------------------
A|---------------------------------------------------------------------------------
E|---------------------------------------------------------------------------------



E|--11--9--11--9--11--9---------
B|-----------------------11--9--
G|------------------------------
D|------------------------------
A|------------------------------
E|------------------------------



E|--------------------------------------------------------------------------
B|--------------------------------------------------------------------------
G|----------8--10--8----------8--10--8----------8--10--7----------8--10--7--
D|------10----------------10----------------10----------------10------------
A|--10----------------10----------------10----------------10----------------
E|--------------------------------------------------------------------------



E|-------------------------------------------------------------------------
B|-------------------------------------------------------------------------
G|----------8--10--8----------8--10--8----------8--10--7----------8--7--5--
D|------10----------------10----------------10----------------10-----------
A|--10----------------10----------------10----------------10---------------
E|-------------------------------------------------------------------------



E|--11--8--11--8-----11--8--11--8-----11--8--11--8--11\13--
B|----------------8----------------9-----------------------
G|---------------------------------------------------------
D|---------------------------------------------------------
A|---------------------------------------------------------
E|---------------------------------------------------------



E|-------------------------------------------------------------------------------
B|--12h14h15--12h14h15--12h14h15--12h14h15--12\10--10h12h13--10h12h13--10h12h13--
G|-------------------------------------------------------------------------------
D|-------------------------------------------------------------------------------
A|-------------------------------------------------------------------------------
E|-------------------------------------------------------------------------------



E|---------------------------------------------------------------------------------------
B|--10h12h13--10\8--8-----10/12--13--12--13--12------13--12------13--12------13--12------
G|---------------------9-------------------------12----------12----------12----------12--
D|---------------------------------------------------------------------------------------
A|---------------------------------------------------------------------------------------
E|---------------------------------------------------------------------------------------



E|-----------------
B|--13--12---------
G|----------12/14--
D|-----------------
A|-----------------
E|-----------------
http://www.guitartabcreator.com
Guitar Tab Creator is intended to store guitar tab created through the tool. It currently does not support in-line text editing. Any text you place in here will be lost. If you need to comment on your tab, please use the "Tab Notes" section located below.