Don't know yet

(/) Slide Up  (\) Slide Down  (h) Hammer On  (p) Pull Off  (b) Bend (r) Release (v) Vibrato

E|--12----------12------------------12----------12--12----------12------------------12----------12--
B|------12----------12----------13----------13----------12----------12----------13----------13------
G|----------12----------12--14----------14------------------12----------12--14----------14----------
D|--------------------------------------------------------------------------------------------------
A|--------------------------------------------------------------------------------------------------
E|--------------------------------------------------------------------------------------------------



E|--12----------12------------------12----------12--12----------12------------------12-------------
B|------12----------12----------13----------13----------12----------12----------13----------13-----
G|----------12----------12--14----------14------------------12----------12--14----------14---------
D|-------------------------------------------------------------------------------------------------
A|-------------------------------------------------------------------------------------------------
E|-------------------------------------------------------------------------------------------------



E|--12--12----------12------------------12----------12--12----------12------------------12---------
B|----------12----------12----------13----------13----------12----------12----------13-------------
G|--------------12----------12--14----------14------------------12----------12--14----------14-----
D|-------------------------------------------------------------------------------------------------
A|-------------------------------------------------------------------------------------------------
E|-------------------------------------------------------------------------------------------------



E|------12--12----------12------------------12----------12--10----------10------------------10------
B|--13----------12----------12----------13----------13----------10----------10----------11----------
G|------------------12----------12--14----------14------------------10----------10--12----------12--
D|--------------------------------------------------------------------------------------------------
A|--------------------------------------------------------------------------------------------------
E|--------------------------------------------------------------------------------------------------



E|------10--12----------12------------------12----------12--14----------14------------------14------
B|--11----------12----------12----------13----------13----------14----------14----------15----------
G|------------------12----------12--14----------14------------------14----------14--16----------16--
D|--------------------------------------------------------------------------------------------------
A|--------------------------------------------------------------------------------------------------
E|--------------------------------------------------------------------------------------------------



E|------14b15--14--12--------------------------15--14--12-----------------------------------------
B|--15-----------------15--12--10--12--13--15--------------15--12--10--12--13--15--17--19--20-----
G|------------------------------------------------------------------------------------------------
D|------------------------------------------------------------------------------------------------
A|------------------------------------------------------------------------------------------------
E|------------------------------------------------------------------------------------------------
http://www.guitartabcreator.com
Guitar Tab Creator is intended to store guitar tab created through the tool. It currently does not support in-line text editing. Any text you place in here will be lost. If you need to comment on your tab, please use the "Tab Notes" section located below.