Song 4 (Bride)

(/) Slide Up  (\) Slide Down  (h) Hammer On  (p) Pull Off  (b) Bend (r) Release (v) Vibrato


E|-----------------------------------------------------------------------------------
B|-----------------------------------------------------------------------------------
G|-----------------------------------------------------------------------------------
D|-----2-----2/3-----3/5-----5-----5/7--7h9-----2-----2/3-----3h5-----3-----2h3p2p0--
A|-----------------------------------------------------------------------------------
E|--0-----0-------0-------0-----0------------0-----0-------0-------0-----0-----------



E|------------------------------------------------------------------------------------
B|------------------------------------------------------------------------------------
G|------------------------------------------------------------------------------------
D|-----2-----2/3-----3/5-----5-----5/7--7h9-----2-----2/3-----5p3-----2-----2h3p0-----
A|------------------------------------------------------------------------------------
E|--0-----0-------0-------0-----0------------0-----0-------0-------0-----0---------0--



E|------------------------------------------------------------------------------------
B|------------------------------------------------------------------------------------
G|------------------------------------------------------------------------------------
D|-----2-----2h3-----2h5-----5-----3h5--5/7-----2-----2h3-----2h3-----0h2--2h3--3-----
A|--0-----0-------0-------0-----0------------0-----0-------0-------0------------------
E|---------------------------------------------------------------------------------0--



E|---------------------------------------------------------------------------------------------------
B|---------------------------------------------------------------------------------------------------
G|---------------------------------------------------------------------------------------------------
D|-----2-----2/3-----3/5-----5-----5/7--7h9-----2-----2h3-----3p2-----0-----0h2--0h3p2h3p2h3p2p0-----
A|---------------------------------------------------------------------------------------------------
E|--0-----0-------0-------0-----0------------0-----0-------0-------0-----0---------------------------
http://www.guitartabcreator.com
Guitar Tab Creator is intended to store guitar tab created through the tool. It currently does not support in-line text editing. Any text you place in here will be lost. If you need to comment on your tab, please use the "Tab Notes" section located below.