We Don't Have to Eat Meat

(/) Slide Up  (\) Slide Down  (h) Hammer On  (p) Pull Off  (b) Bend (r) Release (v) Vibrato
E|----------------2------3------0------0-----
B|--1------3------2------0------3------1-----
G|--2------2------2------0------0------3-----
D|--2------3------4------0------0------2-----
A|----------------4------2------2------3-----
E|----------------2------3------3------0-----



E|------------
B|---------4--
G|--1------4--
D|--2------4--
A|--2------2--
E|---------2--



E|--2--2--2--2--2--x--x-------x--x--
B|--2--2--2--2--2--x--x-------x--x--
G|--2--2--2--2--2--x--x-------x--x--
D|--4--4--4--4--4--x--x-------x--x--
A|--4--4--4--4--4--x--x-------x--x--
E|--2--2--2--2--2--x--x--1h2--x--x--
http://www.guitartabcreator.com
Guitar Tab Creator is intended to store guitar tab created through the tool. It currently does not support in-line text editing. Any text you place in here will be lost. If you need to comment on your tab, please use the "Tab Notes" section located below.