Childhood Arsonists Lead To Kids With Guns

(/) Slide Up  (\) Slide Down  (h) Hammer On  (p) Pull Off  (b) Bend (r) Release (v) Vibrato

Intro Guitar 1&2:
E|-----------------------
B|-----------------------
G|-----------------------
D|-----------------------
A|--5-----5--5--4--4--5--
E|-----6-----------------



E|--------------------------------------------------------------------
B|--------------------------------------------------------------------
G|--------------------------------------------------------------------
D|--------------------------------------------------------------------
A|--5--5-----------5--5--5-----------5--5--5--4--4--4--4--4--5--5--5--
E|--------6--6--6-----------5--5--5-----------------------------------



E|-----
B|-----
G|-----
D|-----
A|--5--
E|--0--


Verse 1 Guitar 1:
E|--------------------------------------------------
B|--------------------------------------------------
G|--------------------------------------------------
D|-------------------------------------------------- x16
A|--0--0--7--0--0--5--0--0--3--0--0--2--0--0--2--3--
E|--------------------------------------------------


Verse 1 Guitar (while guitar 1 plays)
E|--------------------------------------------------
B|--------------------------------------------------
G|--------------------------------------------------
D|-------------------------------------------------- x16
A|--7--7--7--5--5--5--3--3--3--2--2--2--2--2--2--3--
E|--------------------------------------------------


Chorus (both guitars, each chord x24)
E|--------------
B|--------------
G|--------------
D|--4--6--4--6-- x2
A|--2--4--2--4--
E|--0--0--0--0--



E|-----
B|-----
G|-----
D|-----
A|--3--
E|--0--


Verse 2 (repay verse 1 = both guitars)
E|-----
B|-----
G|----- x16
D|-----
A|-----
E|-----


Chorus (both guitars, each chord x24)
E|--
B|--
G|--
D|-- x2
A|--
E|--


Breakdown guitar 1 (first chord x4):
E|--------
B|--------
G|--------
D|--4--5-- x2
A|--2--3--
E|--0--0--

Breakdown guitar 2 (first chord x4)
E|--------
B|--------
G|--------
D|--5--4-- x2
A|--3--2--
E|--0--0--



E|--
B|--
G|--
D|-- (chorus x4)
A|--
E|--


Outro Guitars 1&2:
E|-----------------------
B|-----------------------
G|-----------------------
D|----------------------- x4
A|--7--5--3--2--2--3--0--
E|--0--0--0--0--0--0--0--
http://www.guitartabcreator.com
Guitar Tab Creator is intended to store guitar tab created through the tool. It currently does not support in-line text editing. Any text you place in here will be lost. If you need to comment on your tab, please use the "Tab Notes" section located below.