Cheers. To The Laws Of Physics And Logic

(/) Slide Up  (\) Slide Down  (h) Hammer On  (p) Pull Off  (b) Bend (r) Release (v) Vibrato

Ver. 1 Guitar 1:
E|-----------------------------------
B|-----------------------------------
G|-----------0-----------0---------0-
D|-----9-----------9-----------9-----
A|-7-7---7-7---7-7---7-7---7-7---7---
E|-----------------------------------



E|-----------------------------------
B|-----------------------------------
G|-----------0-----------0---------0-
D|-----7-----------7-----------7-----
A|-5-5---5-5---5-5---5-5---5-5---5---
E|-----------------------------------

(x4)

E|-----------------------------------
B|-----------------------------------
G|-----------0-----------0---------0-
D|-----5-----------5-----------5-----
A|-3-3---3-3---3-3---3-3---3-3---3---
E|-----------------------------------



E|-----------------------------------
B|-----------------------------------
G|-----------0-----------0---------0-
D|-----7-----------7-----------7-----
A|-5-5---5-5---5-5---5-5---5-5---5---
E|-----------------------------------


Ver. 1 Guitar 2 (while guitar 1 plays):
E|-----------------------------------------
B|-----------------------------------------
G|-----------------------------------------
D|-9-9-9-9-9-7-7-7-7-7-5-5-5-5-5-7-7-7-7-7- (x4)
A|-7-7-7-7-7-5-5-5-5-5-3-3-3-3-3-5-5-5-5-5-
E|-----------------------------------------


Chorus (x4) Both guitars:
E|---------------------------------------------------------------------------------
B|---------------------------------------------------------------------------------
G|---------------------------------------------------------------------------------
D|---------------------------------------------------------------------------------
A|-7-7-7-7-7-7-7-7-7-7-5-5-5-5-5-5-5-5-5-5-3-3-3-3-3-3-3-3-3-3-5-5-5-5-5-5-5-5-5-5-
E|-7-7-7-7-7-7-7-7-7-7-5-5-5-5-5-5-5-5-5-5-3-3-3-3-3-3-3-3-3-3-5-5-5-5-5-5-5-5-5-5-


Breakdown Guitar 1 (each chord x13):
E|-----------
B|-----------
G|-----------
D|--9--7--5--
A|--7--5--3--
E|--0--0--0--


Both guitars:
E|--
B|--
G|-- (chorus x4)
D|--
A|--
E|--

Outro both guitars (slow):
E|-----
B|-----
G|--0--
D|--9--
A|--7--
E|-----



E|-----
B|-----
G|--0--
D|--7--
A|--5--
E|-----



E|-----
B|-----
G|--0--
D|--5--
A|--3--
E|-----



E|-----
B|-----
G|--0--
D|--7--
A|--5--
E|-----



E|-----
B|-----
G|-----
D|--9--
A|--7--
E|--0--
http://www.guitartabcreator.com
Guitar Tab Creator is intended to store guitar tab created through the tool. It currently does not support in-line text editing. Any text you place in here will be lost. If you need to comment on your tab, please use the "Tab Notes" section located below.