A1T01

(/) Slide Up  (\) Slide Down  (h) Hammer On  (p) Pull Off  (b) Bend (r) Release (v) Vibrato
E|-----------------------------------------------0--2--3--5--3--2--0--
B|--------------------------------------------------------------------
G|--------------------------------------------------------------------
D|--------------------------------------------------------------------
A|--------------------------------------------------------------------
E|--0--2--3--5--3--2--0--0--2--3--5--3--2--0--0--0--2--3--5--3--2--0--



E|--0--2--3--5--3--2--0--0--0--0--0--0--0--0--0--2--3--5--3--2-----------2--
B|--------------------------------------------------------------3--0--3-----
G|--------------------------------------------------------------------------
D|--------------------------------------------------------------------------
A|--------------------------------------------------------------------------
E|--------------------------------------------------------------------------



E|--0--2--3--5--3--2-----------2--3--2--0--------2--0--0--3--2--0--------2--0--0--
B|--------------------3--0--3--------------3--0--------------------3--0-----------
G|--------------------------------------------------------------------------------
D|--------------------------------------------------------------------------------
A|--------------------------------------------------------------------------------
E|--------------------------------------------------------------------------------



E|--2--3--3--2--------------------------------------------------------------------------
B|--------------1--3--1--0--1--0--------------------------------------------------------
G|-----------------------------------------0--2--0--------------0--2--0-----------------
D|--------------------------------2--2--4-----------4--2--2--4-----------4--2--0--2-----
A|--------------------------------------------------------------------------------------
E|--------------------------------------------------------------------------------------



E|--------------------------------------------------------------------------
B|--------------------------------------------------------------------------
G|--------0--2--0--------------------------------------------0--2--4--5--4--
D|--2--4-----------4--2--0--2--2--2--2--2--2--2--2--2--2--4-----------------
A|-----------------------------0--0--0--0--0--0--0--0-----------------------
E|--------------------------------------------------------------------------



E|--------------------------------------------------0--
B|-----------------------------------------------------
G|--5--4--2--4--2--0--2--0-----0-----------------------
D|--------------------------4-----4--2--4--2--0--2-----
A|-----------------------------------------------------
E|-----------------------------------------------------
http://www.guitartabcreator.com
Guitar Tab Creator is intended to store guitar tab created through the tool. It currently does not support in-line text editing. Any text you place in here will be lost. If you need to comment on your tab, please use the "Tab Notes" section located below.