Kawai Kenji- Ima wa sono tsurugi wp oi te

(/) Slide Up  (\) Slide Down  (h) Hammer On  (p) Pull Off  (b) Bend (r) Release (v) Vibrato

E|-------------9------12--12--12--14--------------9------------5--7-----------------
B|--8--10--12-----10------------------12--10--12-----10--5--3--------9--8--8--5--5--
G|----------------------------------------------------------------------------------
D|----------------------------------------------------------------------------------
A|----------------------------------------------------------------------------------
E|----------------------------------------------------------------------------------



E|------14--12--14--14--16--12--10--12--12--
B|--10--------------------------------------
G|------------------------------------------
D|------------------------------------------
A|------------------------------------------
E|------------------------------------------
http://www.guitartabcreator.com
Guitar Tab Creator is intended to store guitar tab created through the tool. It currently does not support in-line text editing. Any text you place in here will be lost. If you need to comment on your tab, please use the "Tab Notes" section located below.