Yawning Man - "Perpetual Oyster"

(/) Slide Up  (\) Slide Down  (h) Hammer On  (p) Pull Off  (b) Bend (r) Release (v) Vibrato

E|--------------------------|-----
B|--------------------------|-----
G|--------------------------|-----
D|--2-----------------------|-----
A|-----2--4-----5-----4-----|-----
E|-----------4-----5-----4--|-----



E|-------------------------------------------------------------|--
B|-------------------------------------------------------------|--
G|--7h9--9--9--9--5--5--5--7--7--------------------------------|--
D|-------------------------------0--7--7--0--7--0--7--7--0--7--|--
A|-------------------------------------------------------------|--
E|-------------------------------------------------------------|--



E|-----------------------------------------------|--
B|-----------------------------------------------|--
G|-----------------------------------------------|--
D|--------------------10h12--12--12--12--10------|--
A|--0--0--0--0--0--0-------------------------12--|--
E|-----------------------------------------------|--
http://www.guitartabcreator.com
Guitar Tab Creator is intended to store guitar tab created through the tool. It currently does not support in-line text editing. Any text you place in here will be lost. If you need to comment on your tab, please use the "Tab Notes" section located below.