Yawning Man - "Ground Swell" - Bass

(/) Slide Up  (\) Slide Down  (h) Hammer On  (p) Pull Off  (b) Bend (r) Release (v) Vibrato
E|----------------------|----------------------|-
B|----------------------|----------------------|-
G|----------------------|----------------------|-
D|-0/3------------------|----------------------|-
A|-----5--5-5-5-5-5-5-5-|-3/7-3--3-3-3-3-3-3-3-|-
E|----------------------|----------------------|-



E|----------------------------|------------------------|-
B|----------------------------|------------------------|-
G|----------------------------|------------------------|-
D|---7--5h7-7-7-5h7-7-7-5h7-7-|------------------------|-
A|----------------------------|---0/3--3-3-3-3-3-3-3-3-|-
E|-5--------------------------|-1----------------------|-



E|---------------------------------|-
B|---------------------------------|-
G|---------------------------------|-
D|---------------------------------|-
A|-3-3-3-3-3-3-3-3-3-3-3-3-3-3-3-3-|-
E|---------------------------------|-



E|------------------------------------------------------------------|-
B|------------------------------------------------------------------|-
G|------------------------------------------------------------------|-
D|-7-7-7-7-7-7-7-7--------------------------------------------------|-
A|-----------------8-8-8-8-8-8-8-8--3-3-3-3-3-3-3-3-3-3-3-3-3-3-3-3-|-
E|------------------------------------------------------------------|-



E|-------------------------------------------------------------------------------------------|-
B|-------------------------------------------------------------------------------------------|-
G|-------------------------------------------------------------------------------------------|-
D|-5h7-7-7-5h7-7-7-5h7-7---------------------10-10-10-10-10-10-10-10-10-10-10-10-10-10-10-10-|-
A|-----------------------6h8-8-8-6h8-8-6h8-8-------------------------------------------------|-
E|-------------------------------------------------------------------------------------------|-



E|------------------------------------------------------------------|-
B|------------------------------------------------------------------|-
G|------------------------------------------------------------------|-
D|----------------------------------7-7-7-7-7-7-7-7-----------------|-
A|--3-3-3-3-3-3-3-3-3-3-3-3-3-3-3-3-----------------8-8-8-8-8-8-8-8-|-
E|------------------------------------------------------------------|-



E|-----------------------------------------------------------------|-
B|-----------------------------------------------------------------|-
G|-----------------------------------------------------------------|-
D|-----------------------------------------------------------------|-
A|-7-7-7-7-7-7-7-7-7-7-7-7-7-7-7-7-3-3-3-3-3-3-3-3-3-3-3-3-3-3-3-3-|-
E|-----------------------------------------------------------------|-



E|-----------------------------------|-----------------------------------|--
B|-----------------------------------|-----------------------------------|--
G|--------7----5h7p5-----5-----------|--------7----5h7p5-----5-----------|--
D|-----7--------------7-----7--5-----|-----7--------------7-----7--5-----|--
A|--5-----------------------------7--|--5-----------------------------7--|--
E|-----------------------------------|-----------------------------------|--



E|-------------------|-----------|--
B|-------------------|-----------|--
G|--------7----------|--------7--|--
D|-----7-------7--7--|-----7-----|--
A|--5----------------|--5--------|--
E|-------------------|-----------|--



E|------------|-----
B|------------|-----
G|------------|-----
D|--0/3-------|-----
A|---------5--|-----
E|------------|-----



E|--
B|--
G|--
D|--
A|--
E|--
http://www.guitartabcreator.com
Guitar Tab Creator is intended to store guitar tab created through the tool. It currently does not support in-line text editing. Any text you place in here will be lost. If you need to comment on your tab, please use the "Tab Notes" section located below.