Yawning Man - "Far-Off Adventure"

(/) Slide Up  (\) Slide Down  (h) Hammer On  (p) Pull Off  (b) Bend (r) Release (v) Vibrato


E|----------------------------------|--------------------------------------------|--
B|----------------------------------|--------------------------------------------|--
G|-------------------5-----------7--|-------------------5------------------------|--
D|-----7--------5h7-----------7-----|-----7--------5h7-----7--0--3h5--5--3h5--5--|--
A|--0-----3--0----------0--5--------|--0-----3--0--------------------------------|--
E|----------------------------------|--------------------------------------------|--



E|--------------------------------|------------------------------------------|--
B|--------------------------------|------------------------------------------|--
G|-----------------------------7--|------------------------------------------|--
D|-----7--------5--7--------7-----|-----7--------5--7--------3h5--5--3h5--5--|--
A|--0-----3--0--------0--5--------|--0-----3--0--------0--5------------------|--
E|--------------------------------|------------------------------------------|--
http://www.guitartabcreator.com
Guitar Tab Creator is intended to store guitar tab created through the tool. It currently does not support in-line text editing. Any text you place in here will be lost. If you need to comment on your tab, please use the "Tab Notes" section located below.