Yawning Man - "Camel Tow" Bass

(/) Slide Up  (\) Slide Down  (h) Hammer On  (p) Pull Off  (b) Bend (r) Release (v) Vibrato


E|--------------|-----
B|--------------|-----
G|--------------|-----
D|--5-----------|-----
A|-----5--7--3--|-----
E|--------------|-----



E|--------------|--
B|--------------|--
G|--------------|--
D|--------------|--
A|--------------|--
E|--5--0--1--3--|--



E|--------------|--
B|--------------|--
G|--------------|--
D|--5--3--------|--
A|--------3--0--|--
E|--------------|--



E|---------------------------------------------|--
B|---------------------------------------------|--
G|---------------------------------------------|--
D|--2h3--3--3--6h7--7--7--5--5--5--5--5--5--5--|--
A|---------------------------------------------|--
E|---------------------------------------------|--
http://www.guitartabcreator.com
Guitar Tab Creator is intended to store guitar tab created through the tool. It currently does not support in-line text editing. Any text you place in here will be lost. If you need to comment on your tab, please use the "Tab Notes" section located below.