Yawing Man - "Faith Cakes" Bass!

(/) Slide Up  (\) Slide Down  (h) Hammer On  (p) Pull Off  (b) Bend (r) Release (v) Vibrato

E|--------------|--
B|--------------|--
G|--------------|--
D|--------------|--
A|--5-----5-----|--
E|-----5-----5--|--



E|--------------|--
B|--------------|--
G|--------------|--
D|--------------|--
A|-----------3--|--
E|--5--0--7-----|--



E|--------------------------|--
B|--------------------------|--
G|-----7--------------------|--
D|--5-----------------------|--
A|--------5--5--------3--3--|--
E|--------------5--5--------|--



E|--------------------------|--
B|--------------------------|--
G|--------------------------|--
D|--------------------------|--
A|--6--6--3--3--1--1--3--3--|--
E|--------------------------|--



E|-----------------------|--
B|-----------------------|--
G|-----------------------|--
D|-----------------1-----|--
A|--6--3--0--1--3-----3--|--
E|-----------------------|--
http://www.guitartabcreator.com
Guitar Tab Creator is intended to store guitar tab created through the tool. It currently does not support in-line text editing. Any text you place in here will be lost. If you need to comment on your tab, please use the "Tab Notes" section located below.