What the Hell?

(/) Slide Up  (\) Slide Down  (h) Hammer On  (p) Pull Off  (b) Bend (r) Release (v) Vibrato


E|--------------------------|--------------------------------------------------|-----
B|--------------------------|--------------------------------------------------|-----
G|--------------------------|--------------------------------------------------|-----
D|--------------------------|--------3--4--3--4--3--4--------5--6--5--6--5--6--|-----
A|-----5-----6-----7-----8--|-----5-----------------------7--------------------|-----
E|--3-----4-----5-----6-----|--3-----------------------5-----------------------|-----



E|--------------------------------------|-----------------------------------|-----
B|--------------------------------------|-----------------------------------|-----
G|--------------------------------------|-----------------------------------|-----
D|--------------------------------------|--------------------------------6--|-----
A|--------------------------------------|--------5--5--------5--5-----------|-----
E|--3--3--3--4--4--4--5--5--5--6--6--6--|--3--4--------3--4--------3--3-----|-----



E|--------------------------------------|--------------------------|--
B|--------------------------------------|--------------------------|--
G|--------------------------------------|--------------------------|--
D|--5-----5--6-----6--7-----7--8-----8--|--------------6--4--7--5--|--
A|--------------------------------------|-----5-----6--------------|--
E|-----3--------4--------5--------6-----|--3-----4-----------------|--
http://www.guitartabcreator.com
Guitar Tab Creator is intended to store guitar tab created through the tool. It currently does not support in-line text editing. Any text you place in here will be lost. If you need to comment on your tab, please use the "Tab Notes" section located below.