Tool - "Jambi" Solo

(/) Slide Up  (\) Slide Down  (h) Hammer On  (p) Pull Off  (b) Bend (r) Release (v) Vibrato


E|-----------------------------------|-----------------------------------|-
B|-----------------------------------|-----------------------------------|-
G|-----------------------------------|-----------------------------------|-
D|---------------------------------7-|---------------------------------7-|-
A|---------------------------------5-|---------------------------------5-|-
E|-0-0-0-0--0-0-0-0--0-0--0-0-0--0-0-|-0-0-0-0--0-0-0-0--0-0--0-0-0--0-0-|-



E|----------------------------------|------------------------------|-
B|----------------------------------|------------------------------|-
G|----------------------------------|------------------------------|-
D|-------------------7--------------|------------------------------|-
A|-------------------5--------------|----------------------------3-|-
E|-0-0-0-0--0-0-0-0--0--0-0-0-0-0-3-|-0-0-0-0--0-0-0-0--0-0--0-3---|-



E|----------------------------------|---------------------------------------|-
B|----------------------------------|---------------------------------------|-
G|----------------------------------|---------------------------------------|-
D|--------------------------------7-|---------------------------------------|-
A|--------------------------------5-|---------------------------------------|-
E|-0-0-0-0--0-0-0-0--0-0--0-0-0-0-0-|-0-0-0-0--0-0-0-0--0-0--0-0-0-0-0-3/10-|-



E|-----------------------------------|------------------------------------|-
B|-----------------------------------|------------------------------------|-
G|-----------------------------------|------------------------------------|-
D|-----------------------------------|------------------------------------|-
A|-----------------------------------|------------------------------------|-
E|-0-0-0-0--0-0-0-0--0--0-0-3--0-0-5-|-0-0-0-0--0-0-0-0--0-0--0-0-0-0-0-0-|-



E|------------------------------------|-----------------------------------|-
B|------------------------------------|-----------------------------------|-
G|------------------------------------|-----------------------------------|-
D|----------------------------------7-|---------------------------------7-|-
A|----------------------------------5-|---------------------------------5-|-
E|-0-0-0-0--0-0-0-0--0-0--0-0-0-0-0-0-|-0-0-0-0--0-0-0-0--0-0--0-0-0--0-0-|-



E|------------------------------------|---------------------------------------|-
B|------------------------------------|---------------------------------------|-
G|----------------------------------5-|---------------------------------------|-
D|----------------------------------3-|---------------------------------------|-
A|------------------------------------|---------------------------------------|-
E|-0-0-0-0--0-0-0-0--0-0--0-0-0-0-0---|-0-0-0-0--0-0-0-0--0-0--0-0-0-0-7/10\0-|-



E|------------------------------------|----------------------------------------|-
B|------------------------------------|----------------------------------------|-
G|------------------------------------|----------------------------------------|-
D|----------------------------------7-|----------------------------------------|-
A|----------------------------------5-|----------------------------------------|-
E|-0-0-0-0--0-0-0-0--0-0--0-0-0-0-0-0-|-0-0-0-0--0-0-0-0--0-0---0-0-0-0-0-8-10-|-



E|------------------------------------------------------------|---
B|------------------------------------------------------------|---
G|------------------------------------------------------------|---
D|------------------------------------------------------------|---
A|--------------------------------------------------------3---|---
E|-0-0-0-0--0-0-0-0--0-0--0-0-0-0-0-12\0--10\0--7\5-0-3-5---5-|---



E|------------------------------------|-----------------------------------|---
B|------------------------------------|-----------------------------------|---
G|------------------------------------|-----------------------------------|---
D|------------------------------------|--------------------------------10-|---
A|------------------------------------|--------------------------------8--|---
E|-0-0-0-0--0-0-0-0--0-0--0-0-0-0-3-5-|-0-0-0-0--0-0-0-0--0-0--0-0-0-0----|---



E|----------------------------------|-----------------------------------|-
B|----------------------------------|-----------------------------------|-
G|----------------------------------|-----------------------------------|-
D|----------------------------------|-----------------------------------|-
A|----------------------------------|-----------------------------------|-
E|-0-0-0-0--0-0-0-0--0-0--0-0-0h3b4-|-0-0-0-0--0-0-0-0--0-0--0-0-0--0-0-|-
http://www.guitartabcreator.com
Guitar Tab Creator is intended to store guitar tab created through the tool. It currently does not support in-line text editing. Any text you place in here will be lost. If you need to comment on your tab, please use the "Tab Notes" section located below.