Ten East - "Spiritual Hangover"

(/) Slide Up  (\) Slide Down  (h) Hammer On  (p) Pull Off  (b) Bend (r) Release (v) Vibrato


E|----------------------------------------------------------------------------|--
B|----------------------------------------------------------------------------|--
G|----------------------------------------------------------------------------|--
D|----------------------------------------------------------------------------|--
A|--5--5--5--5--5--5--5--5--5--5--5--2--2--2--3--3--3--3--3-----------------3h|--
E|-----------------------------------------------------------3--5--3--0--0----|--



E|-----------------------------|--
B|-----------------------------|--
G|-----------------------------|--
D|-----------7-----------------|--
A|--------5-----5--------------|--
E|--7--7-----------3--3--5--5--|--
http://www.guitartabcreator.com
Guitar Tab Creator is intended to store guitar tab created through the tool. It currently does not support in-line text editing. Any text you place in here will be lost. If you need to comment on your tab, please use the "Tab Notes" section located below.