Some original riffs

(/) Slide Up  (\) Slide Down  (h) Hammer On  (p) Pull Off  (b) Bend (r) Release (v) Vibrato


E|--------------------------------------------|-----
B|--------------------------------------------|-----
G|--------------------------------------------|-----
D|--7p0--0--5p0--0--7p0--0--3p0--0--5p0--3p0--|-----
A|--------------------------------------------|-----
E|--------------------------------------------|-----



E|------------------------------------------------|--
B|------------------------------------------------|--
G|------------------------------------------------|--
D|------------------------------------------------|--
A|--8--8--------------8--8----5--5----5--5--5--5--|--
E|----------10--10--------------------------------|--



E|---------------------------------------------------|--
B|---------------------------------------------------|--
G|--------5--------10-----5--7-----------5-----2-----|--
D|--0--0-----0--0------0--------0--0--3-----2-----2--|--
A|---------------------------------------------------|--
E|---------------------------------------------------|--
http://www.guitartabcreator.com
Guitar Tab Creator is intended to store guitar tab created through the tool. It currently does not support in-line text editing. Any text you place in here will be lost. If you need to comment on your tab, please use the "Tab Notes" section located below.