Sleep-"The Druid"

(/) Slide Up  (\) Slide Down  (h) Hammer On  (p) Pull Off  (b) Bend (r) Release (v) Vibrato
E|-------------------------------------------------------------|--
B|-------------------------------------------------------------|--
G|-------------------------------------------------------------|--
D|-------------------------------------------------------------|--
A|--------7--5--7--------7--7--5--5--7--------7--5--7--12--10--|--
E|--0--0-----------0--0-----------------0--0-------------------|--



E|-----------------------------------------------------------|--
B|-----------------------------------------------------------|--
G|-----------------------------------------------------------|--
D|-----------------------------------------------------------|--
A|--------7--5--7--------7--7--5--5--7--------7--5--7--------|--
E|--0--0-----------0--0-----------------0--0-----------5--7--|--



E|----------------|--
B|----------------|--
G|----------------|--
D|----------------|--
A|--------5--7b5--|--
E|--5--7----------|--



E|----------------------------------------------------------------------------------------|--
B|----------------------------------------------------------------------------------------|--
G|----------------------------------------------------7--8--9p8p7--9p8p7--9p8p7-----------|--
D|-----------------------------8b8--7--5-----5--7--9-----------------------------9--7--5--|--
A|--7--5--7-----------7--5--7-------------7-----------------------------------------------|--
E|-----------5--6--7----------------------------------------------------------------------|--
http://www.guitartabcreator.com
Guitar Tab Creator is intended to store guitar tab created through the tool. It currently does not support in-line text editing. Any text you place in here will be lost. If you need to comment on your tab, please use the "Tab Notes" section located below.