Queens of the Stone Age - "Ode To Clarissa"

(/) Slide Up  (\) Slide Down  (h) Hammer On  (p) Pull Off  (b) Bend (r) Release (v) Vibrato


E|-----------------------------------------------|--
B|-----------------------------------------------|--
G|-----------------------------------------------|--
D|-----------------------------------------------|--
A|-----------------------------------------1--3--|--
E|--3--3--3--3--3--3--3--3--3--3--3--3--3--------|--



E|---------------------------------------------|-----
B|---------------------------------------------|-----
G|--------------------4h5p4--------------------|-----
D|--5--5--3--3---------------5--5--3--3--------|-----
A|--------------5--5---------------------1--3--|-----
E|---------------------------------------------|-----



E|--------------------------------------|--
B|--------------------------------------|--
G|--------------------------------------|--
D|--------------------------------------|--
A|--------1--1--------------1--1--------|--
E|--3--3--------3--3--1--1--------1--1--|--



E|--------------------------------------------------|--
B|--------------------------------------------------|--
G|--------------------------------------------------|--
D|--------------------------------3--3--1--1--------|--
A|--------------------------------------------3--3--|--
E|--1--1--1--1--1--1--1--1--1--1--------------------|--



E|-----------------------------------------|--
B|-----------------------------------------|--
G|-----------------------------------------|--
D|-----------------------------------------|--
A|--------1--1--------1--1-----------1--3--|--
E|--3--3--------3--3--------3--3--3--------|--
http://www.guitartabcreator.com
Guitar Tab Creator is intended to store guitar tab created through the tool. It currently does not support in-line text editing. Any text you place in here will be lost. If you need to comment on your tab, please use the "Tab Notes" section located below.