Dark Tooth Encounter - "Alloy Pop" (in progress)

(/) Slide Up  (\) Slide Down  (h) Hammer On  (p) Pull Off  (b) Bend (r) Release (v) Vibrato


E|-------------|--
B|-------------|--
G|-------------|--
D|--7--10--12--|--
A|--5--8---10--|--
E|-------------|--



E|---------------|--
B|---------------|--
G|---------------|--
D|---------------|--
A|--5--5--8--10--|--
E|---------------|--



E|--------------------------------------------------|--
B|--------------------------------------------------|--
G|--------------------------------------------------|--
D|--------------------------------------------------|--
A|--8--8--8--8--------------------------------------|--
E|--------------8--8--8--8--3--3--3--3--6--6--6--6--|--



E|--------------------------------------------------|--
B|--------------------------------------------------|--
G|--------------------------------------------------|--
D|--------------------------------------------------|--
A|--8--8--8--8--------------------------------------|--
E|--------------8--8--8--8--6--6--8--8--3--3--3--3--|--
http://www.guitartabcreator.com
Guitar Tab Creator is intended to store guitar tab created through the tool. It currently does not support in-line text editing. Any text you place in here will be lost. If you need to comment on your tab, please use the "Tab Notes" section located below.