Steven's untitled song

(/) Slide Up  (\) Slide Down  (h) Hammer On  (p) Pull Off  (b) Bend (r) Release (v) Vibrato
E|-----------------------------------------------------------------------------------------
B|-----------------------------------------------------------------------------------------
G|-----------------------------------------------------------------------------------------
D|-----------------------------------------------------------------------------------------
A|-12-12-12-12-12-12-12-12-14-14-14-14-14-14-14-14-10-10-10-10-10-10-10-10-8-8-8-8-7-7-7-7-
E|-----------------------------------------------------------------------------------------



E|-----------------------------------------------------------------------------------------
B|-----------------------------------------------------------------------------------------
G|-----------------------------------------------------------------------------------------
D|-------------------------14-14-14-14-14-14-14-14-10-10-10-10-10-10-10-10-8-8-8-8-7-7-7-7-
A|-12-12-12-12-12-12-12-12-----------------------------------------------------------------
E|-----------------------------------------------------------------------------------------



E|-----------------------------------------------------------------3-3-3-3-3-3-3-3-3-3-3-3-
B|---------------------------------2-2-2-2-2-2-2-2-2-2-2-2-2-2-2-2-5-5-5-5-5-5-5-5-5-5-5-5-
G|-1-1-1-1-1-1-1-1-1-1-1-1-1-1-1-1-2-2-2-2-2-2-2-2-2-2-2-2-2-2-2-2-5-5-5-5-5-5-5-5-5-5-5-5-
D|-2-2-2-2-2-2-2-2-2-2-2-2-2-2-2-2-2-2-2-2-2-2-2-2-2-2-2-2-2-2-2-2-5-5-5-5-5-5-5-5-5-5-5-5-
A|-2-2-2-2-2-2-2-2-2-2-2-2-2-2-2-2---------------------------------3-3-3-3-3-3-3-3-3-3-3-3-
E|-----------------------------------------------------------------3-3-3-3-3-3-3-3-3-3-3-3-



E|-3-3-3-3-3-3-3-3-3-3-3-3-3-3-3-3-3-3-3-3-
B|-5-5-5-5-3-3-3-3-3-3-3-3-3-3-3-3-3-3-3-3-
G|-5-5-5-5-4-4-4-4-4-4-4-4-4-4-4-4-4-4-4-4-
D|-5-5-5-5-5-5-5-5-5-5-5-5-5-5-5-5-5-5-5-5-
A|-3-3-3-3-5-5-5-5-5-5-5-5-5-5-5-5-5-5-5-5-
E|-3-3-3-3-3-3-3-3-3-3-3-3-3-3-3-3-3-3-3-3-



E|--5--5--5--5--5--5--5--5--5--5--5--5--5--5--5--5--5--5--5--5--5--5--5--5--5--5--5--5--5--5--5--5--3--3--
B|--5--5--5--5--5--5--5--5--5--5--5--5--5--5--5--5--7--7--7--7--7--7--7--7--7--7--7--7--7--7--7--7--3--3--
G|--6--6--6--6--6--6--6--6--6--6--6--6--6--6--6--6--7--7--7--7--7--7--7--7--7--7--7--7--7--7--7--7--4--4--
D|--7--7--7--7--7--7--7--7--7--7--7--7--7--7--7--7--7--7--7--7--7--7--7--7--7--7--7--7--7--7--7--7--5--5--
A|--7--7--7--7--7--7--7--7--7--7--7--7--7--7--7--7--5--5--5--5--5--5--5--5--5--5--5--5--5--5--5--5--5--5--
E|--5--5--5--5--5--5--5--5--5--5--5--5--5--5--5--5--5--5--5--5--5--5--5--5--5--5--5--5--5--5--5--5--3--3--
http://www.guitartabcreator.com
Guitar Tab Creator is intended to store guitar tab created through the tool. It currently does not support in-line text editing. Any text you place in here will be lost. If you need to comment on your tab, please use the "Tab Notes" section located below.