Zimmerman

(/) Slide Up  (\) Slide Down  (h) Hammer On  (p) Pull Off  (b) Bend (r) Release (v) Vibrato

E|----------------------------------------------------------
B|----------------------------------------------------------
G|----------------------------------------------------------
D|---------------------------------11-11-11-11--9--9--9--9--
A|--12--12--12--12--12--12--12--12--9--9--9--9--7--7--7--7--
E|--10--10--10--10--10--10--10--10--------------------------



E|----------------------------------------------
B|----------------------------------------------
G|----------------------------------------------
D|--------------------------7--7--7--7--9b9--7--
A|--9--9--9--9--9--9--9--9----------------------
E|----------------------------------------------



E|--------------------
B|--------------------
G|--------------------
D|--------------------
A|--4--4--4--4--4--4--
E|--2--2--2--2--2--2--



E|--------------------
B|--------------------
G|--------------------
D|--------------5--4--
A|--4-----4-----3--2--
E|--2--0--2--0--------



E|-----
B|-----
G|-----
D|--4--
A|--2--
E|-----



E|----------------------------------------------------------
B|----------------------------------------------------------
G|----------------------------------------------------------
D|--13--13--13--13--13--13--13--13--11-11-11-11-11-11-11-11-
A|--11--11--11--11--11--11--11--11--9--9--9--9--9--9--9--9--
E|----------------------------------------------------------



E|------------------------------
B|------------------------------
G|------------------------------
D|------------------------------
A|--9--9--11--11--9--9--11--11--
E|------------------------------
http://www.guitartabcreator.com
Guitar Tab Creator is intended to store guitar tab created through the tool. It currently does not support in-line text editing. Any text you place in here will be lost. If you need to comment on your tab, please use the "Tab Notes" section located below.