neon lights

(/) Slide Up  (\) Slide Down  (h) Hammer On  (p) Pull Off  (b) Bend (r) Release (v) Vibrato
E|--------------0--------------0--------------0--------------------------
B|--------------4--------------4--------------4--------------------------
G|-----------------------------------------------------------------------
D|--2--2--2--2-----2--2--2--2-----2--2--2--2-----------------2--2--2--2--
A|--0--0--0--0-----0--0--0--0-----0--0--0--0-----5--5--5--5--0--0--0--0--
E|-----------------------------------------------3--3--3--3--------------



E|--------------0--------------0--------------0--------------0--
B|--------------4--------------4--------------4--------------4--
G|--------------------------------------------------------------
D|--2--2--2--2-----2--2--2--2-----2--2--2--2-----2--2--2--2-----
A|--0--0--0--0-----0--0--0--0-----0--0--0--0-----0--0--0--0-----
E|--------------------------------------------------------------



E|-----------------------------------------------------------------
B|-----------------------------------------------------------------
G|-----------------------------------------------------------------
D|-----------------------------------------------------------------
A|--7--7--7--7--5--5--5--7--7--7--7--5--5--5--7--7--7--7--5--5--5--
E|--5--5--5--5--3--3--3--5--5--5--5--3--3--3--5--5--5--5--3--3--3--



E|--------------------------
B|--------------------------
G|--------------------------
D|--5--5--5--5--7--7--7--7--
A|--3--3--3--3--5--5--5--5--
E|--------------------------



E|--------------------------------------------------
B|--------------------------------------------------
G|--------------------------------------------------
D|--7--7--7--7--7--7--7--7--5--5--5--5--5--5--5--5--
A|--5--5--5--5--5--5--5--5--3--3--3--3--3--3--3--3--
E|--------------------------------------------------



E|--------------------------------------------------
B|--------------------------------------------------
G|--------------------------------------------------
D|--------------------------------------------------
A|--8--8--8--8--8--8--8--8--8--8--8--8--8--8--8--8--
E|--6--6--6--6--6--6--6--6--6--6--6--6--6--6--6--6--

SOLO

E|--------------0-----------------
B|--------------4-----------------
G|--------------------------------
D|--2--2--2--2-----2--2--2--2-----
A|--0--0--0--0-----0--0--0--0--5--
E|-----------------------------3--
http://www.guitartabcreator.com
Guitar Tab Creator is intended to store guitar tab created through the tool. It currently does not support in-line text editing. Any text you place in here will be lost. If you need to comment on your tab, please use the "Tab Notes" section located below.