Eating from the inside out

(/) Slide Up  (\) Slide Down  (h) Hammer On  (p) Pull Off  (b) Bend (r) Release (v) Vibrato


E|-----------------------------------------
B|-----------------------------------------
G|-----------------------------------------
D|-----------------------------------------
A|--5--5--8--5--5--8--5--5--8--5--5--6--6--
E|-----------------------------------------



E|--------------------------------------------------------
B|--------------------------------------------------------
G|--------------------------------------------------------
D|--------------------------------------------------------
A|--5--5--8--5--5--8--5--5--8--5--5--8--8--8--8--8--8--8--
E|--------------------------------------------------------



E|-----------------------------------------
B|-----------------------------------------
G|-----------------------------------------
D|-----------------------------------------
A|--0--0--3--0--0--3--0--0--3--0--0--1--1--
E|--0--0--3--0--0--3--0--0--3--0--0--1--1--



E|--------------------------
B|--------------------------
G|--------------------------
D|--5--7--------------------
A|--3--5--5--5--5--5--0--3--
E|--------5--5--5--5--0--3--



E|-----------------------------------
B|-----------------------------------
G|-----------------------------------
D|----------------------------------
A|--------------3--0--------------5--
E|--0--3--5--0--------3--3--5--3-----



E|--------------------------
B|--------------------------
G|--------------------------
D|--------5--7--------5--5--
A|--------3--5--------3--5--
E|--0--0--------0--0--------
http://www.guitartabcreator.com
Guitar Tab Creator is intended to store guitar tab created through the tool. It currently does not support in-line text editing. Any text you place in here will be lost. If you need to comment on your tab, please use the "Tab Notes" section located below.