Chasing Casey

(/) Slide Up  (\) Slide Down  (h) Hammer On  (p) Pull Off  (b) Bend (r) Release (v) Vibrato


E|--------------------------------------------------
B|--------------------------------------------------
G|--------------------------------------------------
D|--------------------------------------------------
A|--2--0--2--0--6--0--5--0--2--0--2--0--8--0--7--0--
E|--2--0--2--0--6--0--5--0--2--0--2--0--8--0--7--0--



E|------------------------
B|------------------------
G|------------------------
D|------------------------
A|--11--10--6--11--10--9--
E|--11--10--9--11--10--9--


tremolo picked
E|-----------------------------------------------
B|-----------------------------------------------
G|-----------------------------------------------
D|-12-9-11-10-12-9-11-10-------------------------
A|-----------------------------------------------
E|-----------------------12-9-11-10-12-9-11-10---



E|-------------------------
B|-------------------------
G|-------------------------
D|-------------------------
A|-6-6-6-5-5-5-3-3-3-0-0-0-
E|-6-6-6-5-5-5-3-3-3-0-0-0-
http://www.guitartabcreator.com
Guitar Tab Creator is intended to store guitar tab created through the tool. It currently does not support in-line text editing. Any text you place in here will be lost. If you need to comment on your tab, please use the "Tab Notes" section located below.