New style chords

(/) Slide Up  (\) Slide Down  (h) Hammer On  (p) Pull Off  (b) Bend (r) Release (v) Vibrato
E|--3--3--8--8--3--3--8--8--|--3--3--5--5--3--3--5--5--|--8--8--5--5--8--8--5--5--|--
B|--6--6--6--6--6--6--6--6--|--6--6--6--6--6--6--6--6--|--6--6--6--6--6--6--6--6--|--
G|--5--5--5--5--5--5--5--5--|--3--3--3--3--3--3--3--3--|--3--3--3--3--3--3--3--3--|--
D|--7--7--7--7--7--7--7--7--|--7--7--7--7--7--7--7--7--|--7--7--7--7--7--7--7--7--|--
A|--3--3--3--3--3--3--3--3--|--3--3--3--3--3--3--3--3--|--3--3--3--3--3--3--3--3--|--
E|--------------------------|--------------------------|--------------------------|--



E|--3--3--5--5--3--3--5--5--|--
B|--6--6--6--6--6--6--6--6--|--
G|--3--3--3--3--3--3--3--3--|--
D|--7--7--7--7--7--7--7--7--|--
A|--3--3--3--3--3--3--3--3--|--
E|--------------------------|--
http://www.guitartabcreator.com
Guitar Tab Creator is intended to store guitar tab created through the tool. It currently does not support in-line text editing. Any text you place in here will be lost. If you need to comment on your tab, please use the "Tab Notes" section located below.