Demo1

(/) Slide Up  (\) Slide Down  (h) Hammer On  (p) Pull Off  (b) Bend (r) Release (v) Vibrato


E|--------
B|--------
G|--------
D|--------
A|--------
E|--------
http://www.guitartabcreator.comE|------------------------------
B|------------------------------
G|-----7------------------------
D|--0--7--6----7--6--4--1-------
A|--0--5--6----7--6--4--1-------
E|--0-----6----7--6--4--1-------



E|-----------------------------------------------
B|-----------------------------------------------
G|--7----10--7----5--7----7----10--7--5--3--5----
D|--7----10--7----5--7----7----10--7--5--3--5----
A|--5----8---5----3--5----5----8---5--3--1--3----
E|-----------------------------------------------



E|--------------------------------------
B|--------------------------------------
G|--------------------------------------
D|--0--0----7--6--4--1----0--0----0--1--
A|--0--0----7--6--4--1----0--0----0--1--
E|--0--0----7--6--4--1----0--0----0--1--



E|----------------------------------------------------------------------------------------
B|----------------------------------------------------------------------------------------
G|----------------------------------------------------------------------------------------
D|--0--0----0--4--4--4----0--0----0--4--4--4----0--0----0--4--4--4----6--6--6----7--7--7--
A|--0--0----0--4--4--4----0--0----0--4--4--4----0--0----0--4--4--4----6--6--6----7--7--7--
E|--0--0----0--4--4--4----0--0----0--4--4--4----0--0----0--4--4--4----6--6--6----7--7--7--
Guitar Tab Creator is intended to store guitar tab created through the tool. It currently does not support in-line text editing. Any text you place in here will be lost. If you need to comment on your tab, please use the "Tab Notes" section located below.