demo 2

(/) Slide Up  (\) Slide Down  (h) Hammer On  (p) Pull Off  (b) Bend (r) Release (v) Vibrato


E|-------------------------------------------------------------------------
B|-------------------------------------------------------------------------
G|------------------------------------------------------7----7----8--7--5--
D|------------------------------------------------------7----7----8--7--5--
A|------------------------------------------------------5----5----6--5--3--
E|--0--0--0--0--0--1----4----2----1----0--0--0--0----0---------------------



E|------------------------------------------------------------
B|------------------------------------------------------------
G|--7--7--7----8--8----8--7---------------5--5----5--8--7--8--
D|--7--7--7----8--8----8--7----1--1--1----5--5----5--8--7--8--
A|--5--5--5----6--6----6--5----1--1--1----3--3----3--6--5--6--
E|-----------------------------1--1--1------------------------



E|--------------------------------------------------
B|--------------------------------------------------
G|----------------------11--11--11--11----14----14--
D|--0--1--1--1----------11--11--11--11----14----14--
A|--0--1--1--1----------9---9---9---9-----12----12--
E|--0--1--1--1--------------------------------------



E|--
B|--
G|--
D|--
A|--
E|--
http://www.guitartabcreator.com
Guitar Tab Creator is intended to store guitar tab created through the tool. It currently does not support in-line text editing. Any text you place in here will be lost. If you need to comment on your tab, please use the "Tab Notes" section located below.