Two for The Lady

(/) Slide Up  (\) Slide Down  (h) Hammer On  (p) Pull Off  (b) Bend (r) Release (v) Vibrato

E|-------------------------------------------------------------------------
B|----------5--5--7--7\8--7--5--5v--10\12--12--10--8--7--7--7h8--7--5--5v--
G|--2\4--7-----------------------------------------------------------------
D|-------------------------------------------------------------------------
A|-------------------------------------------------------------------------
E|-------------------------------------------------------------------------



E|---------------------------------------------------------------------------------------------
B|---------------------------------------------------------------------------------------------
G|--9--9--9--9--7--7---------------------------9--9--9--9--7--7--------------------------------
D|--------------------9v--9--9--9--9--7--7-----------------------9----------9---------9--------
A|------------------------------------------7-----------------------7h9\10-----10--9-----9--7--
E|---------------------------------------------------------------------------------------------



E|------------
B|--10--7--5--
G|--9---7--5--
D|------------
A|--7---5--3--
E|------------



E|----------------------------------------------------------
B|----------------------------------------------------------
G|---------12------11------------------16------14------12v--
D|--12\14------14------14-------12\14------14------14-------
A|-------------------------14v------------------------------
E|----------------------------------------------------------



E|-----------------------------------------------------------------------------------------------
B|-----------------------------------------------------------------------------------------------
G|--9--9--9--9--7--7----------------------------9--9--9--9--7--7---------------------------------
D|--------------------9v--9--9--9--9--7--7------------------------9----------9---------9---------
A|------------------------------------------7v-----------------------7h9\10-----10--9-----9--7v--
E|-----------------------------------------------------------------------------------------------
http://www.guitartabcreator.com
Guitar Tab Creator is intended to store guitar tab created through the tool. It currently does not support in-line text editing. Any text you place in here will be lost. If you need to comment on your tab, please use the "Tab Notes" section located below.