Flight of Arrows

(/) Slide Up  (\) Slide Down  (h) Hammer On  (p) Pull Off  (b) Bend (r) Release (v) Vibrato


E|--------------------------------------------------------------------------------------------
B|--------------------------------------------------------------------------------------------
G|--------2-----2-----------2-----2-----------2--------1-----1-----------1-----1-----------1--
D|-----4-----4-----4-----4-----4-----4-----4--------2-----2-----2-----2-----2-----2-----2-----
A|--------------------------------------------------------------------------------------------
E|--4-----------------4-----------------4--------2-----------------2-----------------2--------



E|-----------------------------------
B|----------------9------------------
G|--5\7--6--9\11-----11--7--6--4--1--
D|-----------------------------------
A|-----------------------------------
E|-----------------------------------



E|--5-----5--------
B|--7--7--7--7--9--
G|--6--7--6--7--9--
D|--4--7--4--7--9--
A|-----5-----5--7--
E|-----------------



E|---------------------------------------
B|-----------------9---------------------
G|--9--7--6--9\11-----11--9--7--6--4--1--
D|---------------------------------------
A|---------------------------------------
E|---------------------------------------



E|--------------------------------------------------------------------------------
B|--------------------------------------------------------------------------------
G|--------------------------------------------------------------------------------
D|--------------------------7--7--7--9--9--------------------------9--9--9--6--6--
A|--9--9--9--9--9--9--9--9-----------------7--7--7--7--7--7--7--7-----------------
E|--------------------------------------------------------------------------------



E|---------------------------------------
B|-----------------9---------------------
G|--9--7--6--9\11-----11--9--7--6--4--1--
D|---------------------------------------
A|---------------------------------------
E|---------------------------------------



E|--5-----5--------
B|--7--7--7--7--9--
G|--6--7--6--7--9--
D|--4--7--4--7--9--
A|-----5-----5--7--
E|-----------------
http://www.guitartabcreator.com
Guitar Tab Creator is intended to store guitar tab created through the tool. It currently does not support in-line text editing. Any text you place in here will be lost. If you need to comment on your tab, please use the "Tab Notes" section located below.