Tab1

(/) Slide Up  (\) Slide Down  (h) Hammer On  (p) Pull Off  (b) Bend (r) Release (v) Vibrato


E|------------------------------------------------------------
B|------------------------------------------------------------
G|-----------------7------------------------------------------
D|-----------9/10-----10--9--7--7--10--9--7-------------------
A|--------7----------------------------------10--9--10--9--7--
E|--0--0--------------------------------------------10--9--7--



E|------------------------------------------------------------------
B|------------------------------------------------------------------
G|------------------------------------------------------------------
D|------------------------------------------------------------------
A|--7--9--10--10--9--7--7--9--7--7--5--7--9--12--10--9--7--7--5--7--
E|--7--9--10--10--9--7--7--9--7--7--5--7--9--12--10--9--7--7--5--7--



E|-----------------------------------------------------------------------
B|-----------------------------------------------------------------------
G|-----------------7-----------------------------------------------------
D|-----------9/10-----10--9--7--7--10--9--7---------------------------8--
A|--------7----------------------------------10--9--12--11--8--8--10--8--
E|--0--0--------------------------------------------12--11--8--8--10--8--



E|--7--9--10--10--9--7--7--9--7--7--5--7--9--12--10--9--7--7--5--7--
B|------------------------------------------------------------------
G|------------------------------------------------------------------
D|------------------------------------------------------------------
A|------------------------------------------------------------------
E|------------------------------------------------------------------
http://www.guitartabcreator.com
Guitar Tab Creator is intended to store guitar tab created through the tool. It currently does not support in-line text editing. Any text you place in here will be lost. If you need to comment on your tab, please use the "Tab Notes" section located below.